  0
SECTION
  2
HEADER
  9
$ACADVER
  1
AC1009
  9
$EXTMAX
 10
47.9390068054199
 20
28.6646537780762
 30
0.0
  9
$EXTMIN
 10
0.0001663160074
 20
0.0
 30
0.0
  9
$INSUNITS
 70
     4
  9
$LUNITS
 70
     2
  9
$LUPREC
 70
     4
  9
$MEASUREMENT
 70
     1
  0
ENDSEC
  0
SECTION
  2
TABLES
  0
TABLE
  2
LAYER
 70
     1
  0
LAYER
  2
0
 70
     0
 62
     7
  6
Continuous
  0
LAYER
  2
ArcText1
 70
     0
 62
    70
  6
Continuous
  0
ENDTAB
  0
TABLE
  2
APPID
 70
     1
  0
APPID
  2
ACAD
 70
     0
  0
ENDTAB
  0
ENDSEC
  0
SECTION
  2
ENTITIES
  0
CIRCLE
  8
0
 10
4.0
 20
20.1776695296637
 30
0.0
 40
1.25
  0
CIRCLE
  8
0
 10
21.6776695296637
 20
22.5
 30
0.0
 40
1.75
  0
CIRCLE
  8
0
 10
42.9392144622456
 20
23.6648619386109
 30
0.0
 40
1.5
  0
POLYLINE
  8
0
 66
     1
 10
0.0
 20
0.0
 30
0.0
 70
     1
  0
VERTEX
  8
0
 10
9.1776695296637
 20
0.0
 42
0.0
  0
VERTEX
  8
0
 10
14.1776695296637
 20
0.0
 42
0.0
  0
VERTEX
  8
0
 10
14.1776695296637
 20
2.5
 42
-1.0
  0
VERTEX
  8
0
 10
29.1776695296637
 20
2.5
 42
0.0
  0
VERTEX
  8
0
 10
29.1776695296637
 20
0.0
 42
0.0
  0
VERTEX
  8
0
 10
34.1776695296637
 20
0.0
 42
0.0
  0
VERTEX
  8
0
 10
34.1776695296637
 20
2.5
 42
0.1751973451062
  0
VERTEX
  8
0
 10
31.2883507979931
 20
10.4927971048052
 42
0.0
  0
VERTEX
  8
0
 10
40.2720533283454
 20
19.4356478880086
 42
8.8504114124191
  0
VERTEX
  8
0
 10
38.6978883330314
 20
21.0170038106811
 42
0.0
  0
VERTEX
  8
0
 10
29.7141858026791
 20
12.0741530274776
 42
0.1404758435104
  0
VERTEX
  8
0
 10
23.422649227353
 20
14.8776025891387
 42
0.0
  0
VERTEX
  8
0
 10
23.422649227353
 20
17.2841543490387
 42
6.1409572072107
  0
VERTEX
  8
0
 10
19.9326898319744
 20
17.2841543490387
 42
0.0
  0
VERTEX
  8
0
 10
19.9326898319744
 20
14.8776025891387
 42
0.1422624365786
  0
VERTEX
  8
0
 10
13.5742712174972
 20
12.0176118745396
 42
0.0
  0
VERTEX
  8
0
 10
7.4457195687124
 20
18.1461635233244
 42
7.8729833462074
  0
VERTEX
  8
0
 10
6.0315060063393
 20
16.7319499609513
 42
0.0
  0
VERTEX
  8
0
 10
12.1600576551241
 20
10.6033983121665
 42
0.1781786050345
  0
VERTEX
  8
0
 10
9.1776695296637
 20
2.5
 42
0.0
  0
SEQEND
  0
POLYLINE
  8
ArcText1
 66
     1
 10
0.0
 20
0.0
 30
0.0
 70
     1
  0
VERTEX
  8
ArcText1
 10
12.9133910651877
 20
0.8786890614363
 42
0.0
  0
VERTEX
  8
ArcText1
 10
10.2223992004794
 20
1.7775062485159
 42
0.0
  0
VERTEX
  8
ArcText1
 10
10.2056730627019
 20
2.1547234955523
 42
0.0
  0
VERTEX
  8
ArcText1
 10
12.8035907731746
 20
3.354966874517
 42
0.0
  0
VERTEX
  8
ArcText1
 10
12.8212772633604
 20
2.9560912209523
 42
0.0
  0
VERTEX
  8
ArcText1
 10
12.0336012436274
 20
2.6119258888163
 42
0.0
  0
VERTEX
  8
ArcText1
 10
12.0826592458169
 20
1.505542288657
 42
0.0
  0
VERTEX
  8
ArcText1
 10
12.8969050155122
 20
1.2504917068406
 42
0.0
  0
SEQEND
  0
POLYLINE
  8
ArcText1
 66
     1
 10
0.0
 20
0.0
 30
0.0
 70
     1
  0
VERTEX
  8
ArcText1
 10
11.7930085819543
 20
1.5939702124139
 42
0.0
  0
VERTEX
  8
ArcText1
 10
11.7532339863782
 20
2.4909892161319
 42
0.0
  0
VERTEX
  8
ArcText1
 10
11.0327023920394
 20
2.1823526097481
 42
-0.0195105314953
  0
VERTEX
  8
ArcText1
 10
10.4923458141916
 20
1.9703174921589
 42
-0.0389803463023
  0
VERTEX
  8
ArcText1
 10
11.0040309532088
 20
1.8501412053734
 42
0.0
  0
SEQEND
  0
POLYLINE
  8
ArcText1
 66
     1
 10
0.0
 20
0.0
 30
0.0
 70
     1
  0
VERTEX
  8
ArcText1
 10
12.4575808196044
 20
4.9444457346967
 42
0.0
  0
VERTEX
  8
ArcText1
 10
12.564552820923
 20
5.2486494840446
 42
-0.0766738449482
  0
VERTEX
  8
ArcText1
 10
12.8237834113217
 20
5.1040219776438
 42
-0.0996595828213
  0
VERTEX
  8
ArcText1
 10
13.0159528492383
 20
4.8777730864174
 42
-0.0977050987291
  0
VERTEX
  8
ArcText1
 10
13.1037279548733
 20
4.6062646610105
 42
-0.0822677413329
  0
VERTEX
  8
ArcText1
 10
13.0882018708955
 20
4.32134321525
 42
-0.0929691319583
  0
VERTEX
  8
ArcText1
 10
12.9581183826698
 20
3.9965292272824
 42
-0.1139400809707
  0
VERTEX
  8
ArcText1
 10
12.705715831287
 20
3.7542094822282
 42
-0.1182040655333
  0
VERTEX
  8
ArcText1
 10
12.3271090062519
 20
3.6413566756832
 42
-0.0693798107384
  0
VERTEX
  8
ArcText1
 10
11.9334062418987
 20
3.6741729458974
 42
-0.0440609342872
  0
VERTEX
  8
ArcText1
 10
11.6669748819244
 20
3.7543358767097
 42
-0.0600474687005
  0
VERTEX
  8
ArcText1
 10
11.4227903553638
 20
3.887698486685
 42
-0.1683987561948
  0
VERTEX
  8
ArcText1
 10
11.1465146926855
 20
4.2657691344255
 42
-0.1295404161004
  0
VERTEX
  8
ArcText1
 10
11.1268116872668
 20
4.7390333338348
 42
-0.0704139169736
  0
VERTEX
  8
ArcText1
 10
11.2172401006836
 20
4.9952215833217
 42
-0.0994199677306
  0
VERTEX
  8
ArcText1
 10
11.3883805630298
 20
5.2062209558233
 42
-0.1015767551808
  0
VERTEX
  8
ArcText1
 10
11.6195641391455
 20
5.3295673074644
 42
-0.077795247546
  0
VERTEX
  8
ArcText1
 10
11.8795182224769
 20
5.3624912298251
 42
0.0
  0
VERTEX
  8
ArcText1
 10
11.8616634193265
 20
5.0430869324018
 42
0.0626788958805
  0
VERTEX
  8
ArcText1
 10
11.6948838117299
 20
5.0202831201172
 42
0.0980948323356
  0
VERTEX
  8
ArcText1
 10
11.5437703805951
 20
4.9461198060148
 42
0.1845169928128
  0
VERTEX
  8
ArcText1
 10
11.3910032754517
 20
4.6959484557474
 42
0.1037207529652
  0
VERTEX
  8
ArcText1
 10
11.3874864359113
 20
4.4719906483267
 42
0.1130484033781
  0
VERTEX
  8
ArcText1
 10
11.4813942921357
 20
4.2686417249487
 42
0.123887726229
  0
VERTEX
  8
ArcText1
 10
11.7147285220684
 20
4.0916167231306
 42
0.0551797226292
  0
VERTEX
  8
ArcText1
 10
11.9938899235917
 20
4.0030072866594
 42
0.0521958566386
  0
VERTEX
  8
ArcText1
 10
12.286436984856
 20
3.9689484275963
 42
0.048067614013
  0
VERTEX
  8
ArcText1
 10
12.4341536575019
 20
3.9826424671384
 42
0.0743405872489
  0
VERTEX
  8
ArcText1
 10
12.5742633893351
 20
4.0313971439959
 42
0.2319034244509
  0
VERTEX
  8
ArcText1
 10
12.8258838086693
 20
4.3732648721158
 42
0.0857739648287
  0
VERTEX
  8
ArcText1
 10
12.834251919827
 20
4.5465549036523
 42
0.1013673703152
  0
VERTEX
  8
ArcText1
 10
12.7773285034868
 20
4.7104426783366
 42
0.1108163842636
  0
VERTEX
  8
ArcText1
 10
12.6375785304373
 20
4.8549420998196
 42
0.0621162872272
  0
SEQEND
  0
POLYLINE
  8
ArcText1
 66
     1
 10
0.0
 20
0.0
 30
0.0
 70
     1
  0
VERTEX
  8
ArcText1
 10
12.3752678972304
 20
5.6442332611093
 42
-0.0793096936787
  0
VERTEX
  8
ArcText1
 10
12.0111730852119
 20
5.8762507000109
 42
-0.1374207317704
  0
VERTEX
  8
ArcText1
 10
11.7782274470971
 20
6.2397525667996
 42
-0.096263100432
  0
VERTEX
  8
ArcText1
 10
11.7465236392597
 20
6.5636272935465
 42
-0.0831137495427
  0
VERTEX
  8
ArcText1
 10
11.8328752412271
 20
6.8773842067386
 42
-0.0934089194758
  0
VERTEX
  8
ArcText1
 10
12.0337478897716
 20
7.1716513211647
 42
-0.1096263509906
  0
VERTEX
  8
ArcText1
 10
12.3366161806115
 20
7.359304607625
 42
-0.1171189234928
  0
VERTEX
  8
ArcText1
 10
12.7208620686547
 20
7.4012134571191
 42
-0.0774662695115
  0
VERTEX
  8
ArcText1
 10
13.0919368831086
 20
7.293024453677
 42
-0.0406641775012
  0
VERTEX
  8
ArcText1
 10
13.3545295276001
 20
7.1498400630468
 42
-0.0791503273496
  0
VERTEX
  8
ArcText1
 10
13.5773494664349
 20
6.9503206093275
 42
-0.1510120015038
  0
VERTEX
  8
ArcText1
 10
13.7435234191224
 20
6.5201095659207
 42
-0.1294988566368
  0
VERTEX
  8
ArcText1
 10
13.6597622839098
 20
6.0503431213466
 42
-0.0911724948852
  0
VERTEX
  8
ArcText1
 10
13.4591037543838
 20
5.7532681362006
 42
-0.1118836502062
  0
VERTEX
  8
ArcText1
 10
13.1554319425313
 20
5.5627401058535
 42
-0.1209671023324
  0
VERTEX
  8
ArcText1
 10
12.7574448831428
 20
5.5278086719182
 42
-0.0714526457578
  0
SEQEND
  0
POLYLINE
  8
ArcText1
 66
     1
 10
0.0
 20
0.0
 30
0.0
 70
     1
  0
VERTEX
  8
ArcText1
 10
12.5131080781291
 20
5.9487144348898
 42
0.0602733930122
  0
VERTEX
  8
ArcText1
 10
12.790885280964
 20
5.8576638014225
 42
0.1192897023427
  0
VERTEX
  8
ArcText1
 10
13.0830487012469
 20
5.8671994571139
 42
0.225829144534
  0
VERTEX
  8
ArcText1
 10
13.4161773448854
 20
6.1606152660655
 42
0.2272931422955
  0
VERTEX
  8
ArcText1
 10
13.4144545373978
 20
6.6036368887936
 42
0.1206046753197
  0
VERTEX
  8
ArcText1
 10
13.2248167101691
 20
6.8317720805281
 42
0.0586771310173
  0
VERTEX
  8
ArcText1
 10
12.9689092998533
 20
6.9818375413663
 42
0.0633962461497
  0
VERTEX
  8
ArcText1
 10
12.696837117956
 20
7.0692362433363
 42
0.1191858816916
  0
VERTEX
  8
ArcText1
 10
12.4113903481374
 20
7.0557460184883
 42
0.22727685936
  0
VERTEX
  8
ArcText1
 10
12.0781060244341
 20
6.7663669799608
 42
0.2258325838835
  0
VERTEX
  8
ArcText1
 10
12.0774379056801
 20
6.322444595109
 42
0.1204891174352
  0
VERTEX
  8
ArcText1
 10
12.2621069620096
 20
6.0969166384566
 42
0.0602735550367
  0
SEQEND
  0
POLYLINE
  8
ArcText1
 66
     1
 10
0.0
 20
0.0
 30
0.0
 70
     1
  0
VERTEX
  8
ArcText1
 10
14.217917507406
 20
7.1712110346881
 42
0.0
  0
VERTEX
  8
ArcText1
 10
12.0158871935761
 20
8.642877087455
 42
0.0
  0
VERTEX
  8
ArcText1
 10
12.1965828890045
 20
8.9132491587302
 42
0.0
  0
VERTEX
  8
ArcText1
 10
14.3986132028344
 20
7.4415831059633
 42
0.0
  0
SEQEND
  0
POLYLINE
  8
ArcText1
 66
     1
 10
0.0
 20
0.0
 30
0.0
 70
     1
  0
VERTEX
  8
ArcText1
 10
15.3478554894163
 20
8.9306551799306
 42
-0.0848567980556
  0
VERTEX
  8
ArcText1
 10
15.2673199307194
 20
8.528046442688
 42
-0.0917287219654
  0
VERTEX
  8
ArcText1
 10
15.0686288280188
 20
8.2239410426654
 42
-0.0677377996809
  0
VERTEX
  8
ArcText1
 10
14.8694558254592
 20
8.0581016044588
 42
-0.1171166505015
  0
VERTEX
  8
ArcText1
 10
14.6240760143184
 20
7.9746670002562
 42
-0.220080088721
  0
VERTEX
  8
ArcText1
 10
14.2193616601885
 20
8.1215985471443
 42
-0.1275931721342
  0
VERTEX
  8
ArcText1
 10
14.0755719500826
 20
8.3432675645078
 42
-0.1181730191337
  0
VERTEX
  8
ArcText1
 10
14.0535495962961
 20
8.5943607931214
 42
-0.0808354251657
  0
VERTEX
  8
ArcText1
 10
14.136552549563
 20
8.8385596501816
 42
-0.0299471614234
  0
VERTEX
  8
ArcText1
 10
14.2988009355535
 20
9.0827153586001
 42
0.0140104932637
  0
VERTEX
  8
ArcText1
 10
14.4681494073525
 20
9.3250600771287
 42
0.0376922563341
  0
VERTEX
  8
ArcText1
 10
14.6139953523553
 20
9.5822349403507
 42
0.0038008375891
  0
VERTEX
  8
ArcText1
 10
14.5533167933671
 20
9.6416608837423
 42
0.0644973592157
  0
VERTEX
  8
ArcText1
 10
14.4325581008973
 20
9.7315057849271
 42
0.1482411353272
  0
VERTEX
  8
ArcText1
 10
14.2860752986813
 20
9.7661113778405
 42
0.1193098553757
  0
VERTEX
  8
ArcText1
 10
14.1017281535239
 20
9.6987068776368
 42
0.0621324733157
  0
VERTEX
  8
ArcText1
 10
13.9522652212373
 20
9.5714745241569
 42
0.0480259143267
  0
VERTEX
  8
ArcText1
 10
13.8429271387658
 20
9.432821252985
 42
0.1091436414117
  0
VERTEX
  8
ArcText1
 10
13.7791110370718
 20
9.2681789767832
 42
0.1157634268199
  0
VERTEX
  8
ArcText1
 10
13.8015890681283
 20
9.1044475647096
 42
0.0554617632767
  0
VERTEX
  8
ArcText1
 10
13.8758977476732
 20
8.9568283778082
 42
0.0
  0
VERTEX
  8
ArcText1
 10
13.6266834424545
 20
8.7546492704521
 42
-0.0458688235834
  0
VERTEX
  8
ArcText1
 10
13.536679363651
 20
8.911005267878
 42
-0.0699911207919
  0
VERTEX
  8
ArcText1
 10
13.48459973493
 20
9.0837353161927
 42
-0.082802520419
  0
VERTEX
  8
ArcText1
 10
13.4880932263014
 20
9.2585670235329
 42
-0.0584501252699
  0
VERTEX
  8
ArcText1
 10
13.5402246828901
 20
9.4254819495965
 42
-0.0871990007695
  0
VERTEX
  8
ArcText1
 10
13.7881269615682
 20
9.7899419675477
 42
-0.0313581762822
  0
VERTEX
  8
ArcText1
 10
13.9349570217737
 20
9.9293468019622
 42
-0.0577218276632
  0
VERTEX
  8
ArcText1
 10
14.1035158735043
 20
10.0415104837134
 42
-0.0473305442863
  0
VERTEX
  8
ArcText1
 10
14.2299827505845
 20
10.0906049256508
 42
-0.0837722869362
  0
VERTEX
  8
ArcText1
 10
14.3647644585879
 20
10.1060331867748
 42
-0.1213301996644
  0
VERTEX
  8
ArcText1
 10
14.5947155472916
 20
10.0289690441848
 42
-0.0338083784329
  0
VERTEX
  8
ArcText1
 10
14.7132285676484
 20
9.9365700739115
 42
-0.0095311443503
  0
VERTEX
  8
ArcText1
 10
14.8245209277678
 20
9.8355904443628
 42
0.0
  0
VERTEX
  8
ArcText1
 10
15.1406821819761
 20
9.5388656537293
 42
0.0053648493439
  0
VERTEX
  8
ArcText1
 10
15.3521457209152
 20
9.3440560420076
 42
0.0264070765298
  0
VERTEX
  8
ArcText1
 10
15.5731957300395
 20
9.1601960302912
 42
0.0828596162076
  0
VERTEX
  8
ArcText1
 10
15.7973699785962
 20
9.0637767356376
 42
0.0
  0
VERTEX
  8
ArcText1
 10
15.5649355592667
 20
8.8161170865077
 42
-0.0892986638544
  0
SEQEND
  0
POLYLINE
  8
ArcText1
 66
     1
 10
0.0
 20
0.0
 30
0.0
 70
     1
  0
VERTEX
  8
ArcText1
 10
14.7997400892027
 20
9.4079091258536
 42
-0.0420601405311
  0
VERTEX
  8
ArcText1
 10
14.6756775599211
 20
9.1647329968544
 42
-0.0170712212829
  0
VERTEX
  8
ArcText1
 10
14.5258312427024
 20
8.9365395654355
 42
0.0152268023759
  0
VERTEX
  8
ArcText1
 10
14.4455534304861
 20
8.8149222630977
 42
0.0468967176183
  0
VERTEX
  8
ArcText1
 10
14.3791479636276
 20
8.6852086930459
 42
0.1517727835975
  0
VERTEX
  8
ArcText1
 10
14.3690898547248
 20
8.5187328109785
 42
0.1496720755797
  0
VERTEX
  8
ArcText1
 10
14.4501547998992
 20
8.3807093169825
 42
0.2245320045726
  0
VERTEX
  8
ArcText1
 10
14.6749985048959
 20
8.3034832038626
 42
0.1166033163975
  0
VERTEX
  8
ArcText1
 10
14.8190588600649
 20
8.3558631987419
 42
0.0634001380333
  0
VERTEX
  8
ArcText1
 10
14.9360472828266
 20
8.4549124152082
 42
0.1289837222213
  0
VERTEX
  8
ArcText1
 10
15.1054924071091
 20
8.7542559469042
 42
0.1561049646995
  0
VERTEX
  8
ArcText1
 10
15.0879511292314
 20
9.0655633972374
 42
0.0758471042267
  0
VERTEX
  8
ArcText1
 10
15.0005817795433
 20
9.2061750111769
 42
0.0323832165812
  0
VERTEX
  8
ArcText1
 10
14.88668443411
 20
9.3263098084294
 42
0.0
  0
SEQEND
  0
POLYLINE
  8
ArcText1
 66
     1
 10
0.0
 20
0.0
 30
0.0
 70
     1
  0
VERTEX
  8
ArcText1
 10
16.3479721252823
 20
9.4685245480714
 42
0.0
  0
VERTEX
  8
ArcText1
 10
16.0948468504366
 20
9.3043420079312
 42
0.0
  0
VERTEX
  8
ArcText1
 10
14.6535797615413
 20
11.5263878338221
 42
0.0
  0
VERTEX
  8
ArcText1
 10
14.9264093990995
 20
11.7033510507397
 42
0.0
  0
VERTEX
  8
ArcText1
 10
15.4405858571434
 20
10.9106293816121
 42
-0.1102771496176
  0
VERTEX
  8
ArcText1
 10
15.5303040918509
 20
11.1982174853293
 42
-0.1171876858162
  0
VERTEX
  8
ArcText1
 10
15.7410729933113
 20
11.4134679054668
 42
-0.1094155275081
  0
VERTEX
  8
ArcText1
 10
16.0608063912278
 20
11.5347179589525
 42
-0.1255737061108
  0
VERTEX
  8
ArcText1
 10
16.3881974183736
 20
11.5080435893256
 42
-0.0927772629316
  0
VERTEX
  8
ArcText1
 10
16.6921947019986
 20
11.3348381929126
 42
-0.0771438102753
  0
VERTEX
  8
ArcText1
 10
16.9530536089767
 20
11.0389027552947
 42
-0.0690589146862
  0
VERTEX
  8
ArcText1
 10
17.1301447811039
 20
10.672314845793
 42
-0.1161639616273
  0
VERTEX
  8
ArcText1
 10
17.1633118115815
 20
10.2665464145533
 42
-0.099704455414
  0
VERTEX
  8
ArcText1
 10
17.0512586985189
 20
9.9562180273244
 42
-0.11148104709
  0
VERTEX
  8
ArcText1
 10
16.8187046824251
 20
9.7221703130118
 42
-0.1246600275376
  0
VERTEX
  8
ArcText1
 10
16.5248393997934
 20
9.6166554802983
 42
-0.1221372399057
  0
VERTEX
  8
ArcText1
 10
16.2172159705599
 20
9.6701153358227
 42
0.0
  0
SEQEND
  0
POLYLINE
  8
ArcText1
 66
     1
 10
0.0
 20
0.0
 30
0.0
 70
     1
  0
VERTEX
  8
ArcText1
 10
15.8150341630952
 20
10.2835314825716
 42
0.036129059774
  0
VERTEX
  8
ArcText1
 10
15.9676162815668
 20
10.0784700070665
 42
0.0351195402042
  0
VERTEX
  8
ArcText1
 10
16.0585598997085
 20
9.987832758432
 42
0.0644360668399
  0
VERTEX
  8
ArcText1
 10
16.1651952132189
 20
9.9163154120919
 42
0.1149367563319
  0
VERTEX
  8
ArcText1
 10
16.4099811222537
 20
9.8564181427081
 42
0.1448247364894
  0
VERTEX
  8
ArcText1
 10
16.6504657898297
 20
9.9317499691499
 42
0.1225325187829
  0
VERTEX
  8
ArcText1
 10
16.7959601442915
 20
10.0851942299671
 42
0.09785553031
  0
VERTEX
  8
ArcText1
 10
16.8593935561424
 20
10.2869117429395
 42
0.1155575164871
  0
VERTEX
  8
ArcText1
 10
16.820919320016
 20
10.5756319309964
 42
0.0583338732015
  0
VERTEX
  8
ArcText1
 10
16.688908025327
 20
10.8352712193158
 42
0.0546239327696
  0
VERTEX
  8
ArcText1
 10
16.5072994097949
 20
11.0630225753218
 42
0.1190326415544
  0
VERTEX
  8
ArcText1
 10
16.2612826502657
 20
11.2189976177948
 42
0.1017010858114
  0
VERTEX
  8
ArcText1
 10
16.0564638483545
 20
11.2429366607867
 42
0.1209502190034
  0
VERTEX
  8
ArcText1
 10
15.8623245594384
 20
11.1734112508596
 42
0.1238251086578
  0
VERTEX
  8
ArcText1
 10
15.7169117275382
 20
11.0192324934799
 42
0.0978206928125
  0
VERTEX
  8
ArcText1
 10
15.6543799221085
 20
10.8167337568613
 42
0.1142334788096
  0
VERTEX
  8
ArcText1
 10
15.6883914748865
 20
10.5361777327432
 42
0.0612822992838
  0
SEQEND
  0
POLYLINE
  8
ArcText1
 66
     1
 10
0.0
 20
0.0
 30
0.0
 70
     1
  0
VERTEX
  8
ArcText1
 10
20.3306729104006
 20
11.4289655425675
 42
0.0
  0
VERTEX
  8
ArcText1
 10
20.4011937769104
 20
11.1244764994986
 42
0.0
  0
VERTEX
  8
ArcText1
 10
18.6957031252701
 20
10.7294781200306
 42
-0.1005152954144
  0
VERTEX
  8
ArcText1
 10
18.6817098396673
 20
10.958044990437
 42
-0.0858148563055
  0
VERTEX
  8
ArcText1
 10
18.8099071697987
 20
11.3493561213422
 42
-0.028891741573
  0
VERTEX
  8
ArcText1
 10
18.9621486860785
 20
11.5996263009912
 42
-0.0148257287824
  0
VERTEX
  8
ArcText1
 10
19.1347845212386
 20
11.8362896014439
 42
0.014619968443
  0
VERTEX
  8
ArcText1
 10
19.373462745498
 20
12.163432879361
 42
0.0146849457396
  0
VERTEX
  8
ArcText1
 10
19.4828197725319
 20
12.3340681656827
 42
0.0314740373696
  0
VERTEX
  8
ArcText1
 10
19.5769145344942
 20
12.5135719322764
 42
0.057968452794
  0
VERTEX
  8
ArcText1
 10
19.6392667994936
 20
12.7169978690456
 42
0.0999793119599
  0
VERTEX
  8
ArcText1
 10
19.6363021159114
 20
12.9297446209052
 42
0.2149516292313
  0
VERTEX
  8
ArcText1
 10
19.4274037789861
 20
13.2151661297558
 42
0.1100540597372
  0
VERTEX
  8
ArcText1
 10
19.2421465932204
 20
13.2780645648867
 42
0.0849439554757
  0
VERTEX
  8
ArcText1
 10
19.04698838192
 20
13.2642906196497
 42
0.0849751021403
  0
VERTEX
  8
ArcText1
 10
18.8570772619702
 20
13.187521339378
 42
0.1134240592765
  0
VERTEX
  8
ArcText1
 10
18.7126930445179
 20
13.0422184485896
 42
0.1171601661418
  0
VERTEX
  8
ArcText1
 10
18.6457171307258
 20
12.841160454435
 42
0.0792540209862
  0
VERTEX
  8
ArcText1
 10
18.6616980893946
 20
12.6298439875655
 42
0.0
  0
VERTEX
  8
ArcText1
 10
18.3283433527967
 20
12.5878724934268
 42
-0.076945720916
  0
VERTEX
  8
ArcText1
 10
18.3298032638317
 20
12.9063356081224
 42
-0.1154557188328
  0
VERTEX
  8
ArcText1
 10
18.4516257817463
 20
13.2005807736442
 42
-0.1088254535882
  0
VERTEX
  8
ArcText1
 10
18.6921997974394
 20
13.4144072541098
 42
-0.0728236861905
  0
VERTEX
  8
ArcText1
 10
18.9932909660953
 20
13.528168948455
 42
-0.0780629387703
  0
VERTEX
  8
ArcText1
 10
19.3179162932571
 20
13.5556733043303
 42
-0.1137903759927
  0
VERTEX
  8
ArcText1
 10
19.6288417277523
 20
13.4583929448434
 42
-0.2144370196705
  0
VERTEX
  8
ArcText1
 10
19.9635423265113
 20
12.998116899125
 42
-0.1014385039373
  0
VERTEX
  8
ArcText1
 10
19.9707013112264
 20
12.678952993661
 42
-0.0503660190818
  0
VERTEX
  8
ArcText1
 10
19.9162081660055
 20
12.4914148131447
 42
-0.0313631960271
  0
VERTEX
  8
ArcText1
 10
19.8324617154864
 20
12.314987428976
 42
-0.0252065813632
  0
VERTEX
  8
ArcText1
 10
19.650176967212
 20
12.025483113301
 42
-0.0093240235618
  0
VERTEX
  8
ArcText1
 10
19.4500970832866
 20
11.7479790293518
 42
0.0048084942045
  0
VERTEX
  8
ArcText1
 10
19.3005691267553
 20
11.5457469758065
 42
0.020080468252
  0
VERTEX
  8
ArcText1
 10
19.1594186980032
 20
11.3375812651796
 42
0.0535342484297
  0
VERTEX
  8
ArcText1
 10
19.065195326779
 20
11.1358759297321
 42
0.0
  0
SEQEND
  0
POLYLINE
  8
ArcText1
 66
     1
 10
0.0
 20
0.0
 30
0.0
 70
     1
  0
VERTEX
  8
ArcText1
 10
21.9579853098251
 20
11.151629410084
 42
0.0
  0
VERTEX
  8
ArcText1
 10
21.6327919277597
 20
11.1505089044576
 42
0.0
  0
VERTEX
  8
ArcText1
 10
21.6256518169075
 20
13.2227134001742
 42
-0.0566284795675
  0
VERTEX
  8
ArcText1
 10
21.3174900078213
 20
12.9976268121842
 42
-0.0437580054109
  0
VERTEX
  8
ArcText1
 10
20.9766158845596
 20
12.8284337005427
 42
0.0
  0
VERTEX
  8
ArcText1
 10
20.9755327291208
 20
13.1427873032059
 42
0.0727615370899
  0
VERTEX
  8
ArcText1
 10
21.4514123174404
 20
13.4551710543203
 42
0.0347895540768
  0
VERTEX
  8
ArcText1
 10
21.6118030613715
 20
13.6193678518986
 42
0.0600601914595
  0
VERTEX
  8
ArcText1
 10
21.7392529953721
 20
13.8102665197927
 42
0.0
  0
VERTEX
  8
ArcText1
 10
21.9488220638142
 20
13.8109886234186
 42
0.0
  0
SEQEND
  0
POLYLINE
  8
ArcText1
 66
     1
 10
0.0
 20
0.0
 30
0.0
 70
     1
  0
VERTEX
  8
ArcText1
 10
22.6090569065242
 20
11.0485288563502
 42
0.0
  0
VERTEX
  8
ArcText1
 10
23.876955205551
 20
13.5947767636991
 42
0.0
  0
VERTEX
  8
ArcText1
 10
24.1324944908439
 20
13.5459818040617
 42
0.0
  0
VERTEX
  8
ArcText1
 10
22.8663707701873
 20
10.9993950428264
 42
0.0
  0
SEQEND
  0
POLYLINE
  8
ArcText1
 66
     1
 10
0.0
 20
0.0
 30
0.0
 70
     1
  0
VERTEX
  8
ArcText1
 10
24.9180021288749
 20
10.4610114591101
 42
0.0
  0
VERTEX
  8
ArcText1
 10
24.6124345964633
 20
10.5722790393292
 42
0.0
  0
VERTEX
  8
ArcText1
 10
25.3214563437488
 20
12.5194232597524
 42
-0.0566284795675
  0
VERTEX
  8
ArcText1
 10
24.9545161882512
 20
12.414625383077
 42
-0.0437580054109
  0
VERTEX
  8
ArcText1
 10
24.576182029439
 20
12.3735797838944
 42
0.0
  0
VERTEX
  8
ArcText1
 10
24.6837406903176
 20
12.6689617318924
 42
0.0727615370899
  0
VERTEX
  8
ArcText1
 10
25.238228758953
 20
12.7977560340976
 42
0.0347895540768
  0
VERTEX
  8
ArcText1
 10
25.4454610563012
 20
12.8964502791654
 42
0.0600601914595
  0
VERTEX
  8
ArcText1
 10
25.6310023751131
 20
13.0315806091955
 42
0.0
  0
VERTEX
  8
ArcText1
 10
25.8279236737784
 20
12.9598748352764
 42
0.0
  0
SEQEND
  0
POLYLINE
  8
ArcText1
 66
     1
 10
0.0
 20
0.0
 30
0.0
 70
     1
  0
VERTEX
  8
ArcText1
 10
26.3988251836284
 20
11.21052266919
 42
-0.0270538171884
  0
VERTEX
  8
ArcText1
 10
26.6293674871041
 20
11.5147699495515
 42
-0.0526658875701
  0
VERTEX
  8
ArcText1
 10
26.9035941789382
 20
11.7803183856427
 42
-0.0579981399718
  0
VERTEX
  8
ArcText1
 10
27.1326398581298
 20
11.9164316488376
 42
-0.0817809019288
  0
VERTEX
  8
ArcText1
 10
27.3903659152457
 20
11.9840039892334
 42
-0.0972991965932
  0
VERTEX
  8
ArcText1
 10
27.6451523725494
 20
11.9552983703231
 42
-0.074407141649
  0
VERTEX
  8
ArcText1
 10
27.8748898425416
 20
11.8414529055234
 42
-0.1252275157865
  0
VERTEX
  8
ArcText1
 10
28.134908205269
 20
11.5590213189342
 42
-0.1308306083753
  0
VERTEX
  8
ArcText1
 10
28.2147553787373
 20
11.2048797991477
 42
-0.0811721350505
  0
VERTEX
  8
ArcText1
 10
28.1285474067326
 20
10.7868930353293
 42
-0.0417311222957
  0
VERTEX
  8
ArcText1
 10
27.9931204794588
 20
10.5030372659655
 42
-0.0200166472446
  0
VERTEX
  8
ArcText1
 10
27.8254363607873
 20
10.2369610253462
 42
-0.027287322408
  0
VERTEX
  8
ArcText1
 10
27.5952958850553
 20
9.9335433443212
 42
-0.0520730188516
  0
VERTEX
  8
ArcText1
 10
27.3216857353979
 20
9.6686575799994
 42
-0.0592732323467
  0
VERTEX
  8
ArcText1
 10
27.0927498206495
 20
9.5322819405847
 42
-0.081264220665
  0
VERTEX
  8
ArcText1
 10
26.8349139990904
 20
9.4649719764086
 42
-0.0988333086315
  0
VERTEX
  8
ArcText1
 10
26.5800532493534
 20
9.4934249276885
 42
-0.074051331334
  0
VERTEX
  8
ArcText1
 10
26.3503900717945
 20
9.6075230601187
 42
-0.1046174723862
  0
VERTEX
  8
ArcText1
 10
26.1113202991445
 20
9.8493839516236
 42
-0.1230503809635
  0
VERTEX
  8
ArcText1
 10
26.0082560214497
 20
10.1734654516753
 42
-0.0740833537627
  0
VERTEX
  8
ArcText1
 10
26.0332986937902
 20
10.4546571551309
 42
-0.0601609931443
  0
VERTEX
  8
ArcText1
 10
26.1822442598075
 20
10.848943662327
 42
-0.0322260720832
  0
SEQEND
  0
POLYLINE
  8
ArcText1
 66
     1
 10
0.0
 20
0.0
 30
0.0
 70
     1
  0
VERTEX
  8
ArcText1
 10
26.6748953382041
 20
11.0221242339274
 42
0.0298698666627
  0
VERTEX
  8
ArcText1
 10
26.4439825996713
 20
10.6425441397952
 42
0.0339540456925
  0
VERTEX
  8
ArcText1
 10
26.3537844427319
 20
10.4380513592052
 42
0.084666292222
  0
VERTEX
  8
ArcText1
 10
26.3104101794096
 20
10.218798758722
 42
0.1018848151884
  0
VERTEX
  8
ArcText1
 10
26.3560934854556
 20
9.9993297795541
 42
0.139392797476
  0
VERTEX
  8
ArcText1
 10
26.5011088200046
 20
9.8283791837793
 42
0.1411092296746
  0
VERTEX
  8
ArcText1
 10
26.7131935190312
 20
9.7563441852609
 42
0.102659777138
  0
VERTEX
  8
ArcText1
 10
26.9337056004547
 20
9.7956307730466
 42
0.0851876114291
  0
VERTEX
  8
ArcText1
 10
27.1224066815013
 20
9.9148360727516
 42
0.0442315649717
  0
VERTEX
  8
ArcText1
 10
27.3514306898736
 20
10.1570977663549
 42
0.0202726986031
  0
VERTEX
  8
ArcText1
 10
27.5493662062116
 20
10.4253594606089
 42
0.0301198451876
  0
VERTEX
  8
ArcText1
 10
27.7802468337061
 20
10.8052447812935
 42
0.0344111176092
  0
VERTEX
  8
ArcText1
 10
27.8701419628333
 20
11.0100542730269
 42
0.0862698409776
  0
VERTEX
  8
ArcText1
 10
27.9123590939003
 20
11.2297033057346
 42
0.1046611523255
  0
VERTEX
  8
ArcText1
 10
27.8665283289968
 20
11.4501015487116
 42
0.138042616063
  0
VERTEX
  8
ArcText1
 10
27.7201681821995
 20
11.6211412505977
 42
0.2591794742601
  0
VERTEX
  8
ArcText1
 10
27.3177696616126
 20
11.6660900287142
 42
0.0790654132826
  0
VERTEX
  8
ArcText1
 10
27.1211539984171
 20
11.5454202371617
 42
0.0470465263133
  0
VERTEX
  8
ArcText1
 10
26.8807009682981
 20
11.2985455741769
 42
0.0225629424616
  0
SEQEND
  0
POLYLINE
  8
ArcText1
 66
     1
 10
0.0
 20
0.0
 30
0.0
 70
     1
  0
VERTEX
  8
ArcText1
 10
27.1635354080383
 20
8.998593652679
 42
0.0
  0
VERTEX
  8
ArcText1
 10
29.6306494081498
 20
10.4143242106622
 42
0.0
  0
VERTEX
  8
ArcText1
 10
29.8162359774675
 20
10.232008825401
 42
0.0
  0
VERTEX
  8
ArcText1
 10
27.3504107729763
 20
8.8150121883534
 42
0.0
  0
SEQEND
  0
POLYLINE
  8
ArcText1
 66
     1
 10
0.0
 20
0.0
 30
0.0
 70
     1
  0
VERTEX
  8
ArcText1
 10
29.2908154433031
 20
7.0162978642028
 42
0.0
  0
VERTEX
  8
ArcText1
 10
29.0369352363571
 20
6.8340024707247
 42
0.0
  0
VERTEX
  8
ArcText1
 10
28.0158702867602
 20
8.2560251327522
 42
-0.1005152954144
  0
VERTEX
  8
ArcText1
 10
28.221438085207
 20
8.3569236289308
 42
-0.0858148563055
  0
VERTEX
  8
ArcText1
 10
28.6319438469695
 20
8.3892342492116
 42
-0.028891741573
  0
VERTEX
  8
ArcText1
 10
28.9215322369588
 20
8.34506178625
 42
-0.0148257287824
  0
VERTEX
  8
ArcText1
 10
29.2064127417837
 20
8.2768287492859
 42
0.014619968443
  0
VERTEX
  8
ArcText1
 10
29.6002232093426
 20
8.182471265942
 42
0.0146849457396
  0
VERTEX
  8
ArcText1
 10
29.7998053325052
 20
8.147224472986
 42
0.0314740373696
  0
VERTEX
  8
ArcText1
 10
30.0016975755796
 20
8.1294776806999
 42
0.057968452794
  0
VERTEX
  8
ArcText1
 10
30.2134498189985
 20
8.150235910587
 42
0.0999793119599
  0
VERTEX
  8
ArcText1
 10
30.4086618412412
 20
8.2348659061408
 42
0.2149516292313
  0
VERTEX
  8
ArcText1
 10
30.5916774016602
 20
8.5375361186315
 42
0.1100540597372
  0
VERTEX
  8
ArcText1
 10
30.578417051733
 20
8.7327298714506
 42
0.0849439554757
  0
VERTEX
  8
ArcText1
 10
30.490581170515
 20
8.9075477966642
 42
0.0849751021403
  0
VERTEX
  8
ArcText1
 10
30.3466239449572
 20
9.0532738172774
 42
0.1134240592765
  0
VERTEX
  8
ArcText1
 10
30.1569389856292
 20
9.1306000646035
 42
0.1171601661418
  0
VERTEX
  8
ArcText1
 10
29.9455924132935
 20
9.1150207063462
 42
0.0792540209862
  0
VERTEX
  8
ArcText1
 10
29.7567108886054
 20
9.0189279915253
 42
0.0
  0
VERTEX
  8
ArcText1
 10
29.5896535252443
 20
9.3104392676011
 42
-0.076945720916
  0
VERTEX
  8
ArcText1
 10
29.8841389616791
 20
9.4316795846976
 42
-0.1154557188328
  0
VERTEX
  8
ArcText1
 10
30.2026044296107
 20
9.4325096684814
 42
-0.1088254535882
  0
VERTEX
  8
ArcText1
 10
30.4925596516271
 20
9.292782827823
 42
-0.0728236861905
  0
VERTEX
  8
ArcText1
 10
30.7134559243235
 20
9.0586835931986
 42
-0.0780629387703
  0
VERTEX
  8
ArcText1
 10
30.8638006774327
 20
8.7696601549802
 42
-0.1137903759927
  0
VERTEX
  8
ArcText1
 10
30.8937026133928
 20
8.4452468870892
 42
-0.2144370196705
  0
VERTEX
  8
ArcText1
 10
30.5977319393086
 20
7.9591605890371
 42
-0.1014385039373
  0
VERTEX
  8
ArcText1
 10
30.3059174308295
 20
7.8296957588542
 42
-0.0503660190818
  0
VERTEX
  8
ArcText1
 10
30.1118539425024
 20
7.8077997654823
 42
-0.0313631960271
  0
VERTEX
  8
ArcText1
 10
29.9167844582242
 20
7.8171798594377
 42
-0.0252065813632
  0
VERTEX
  8
ArcText1
 10
29.5794204729108
 20
7.8739779198035
 42
-0.0093240235618
  0
VERTEX
  8
ArcText1
 10
29.2462820455912
 20
7.951819199361
 42
0.0048084942045
  0
VERTEX
  8
ArcText1
 10
29.0020746775938
 20
8.0119787761657
 42
0.020080468252
  0
VERTEX
  8
ArcText1
 10
28.7556156864671
 20
8.0621222932993
 42
0.0535342484297
  0
VERTEX
  8
ArcText1
 10
28.5331831432411
 20
8.0714416144585
 42
0.0
  0
SEQEND
  0
POLYLINE
  8
ArcText1
 66
     1
 10
0.0
 20
0.0
 30
0.0
 70
     1
  0
VERTEX
  8
ArcText1
 10
30.4070122728605
 20
7.0317574104535
 42
-0.0270538171884
  0
VERTEX
  8
ArcText1
 10
30.7675793711275
 20
7.1570870914813
 42
-0.0526658875701
  0
VERTEX
  8
ArcText1
 10
31.1430376026612
 20
7.2259882293406
 42
-0.0579981399718
  0
VERTEX
  8
ArcText1
 10
31.4091195691141
 20
7.2122357494747
 42
-0.0817809019288
  0
VERTEX
  8
ArcText1
 10
31.6610580325573
 20
7.1255423106169
 42
-0.0972991965932
  0
VERTEX
  8
ArcText1
 10
31.8571588023756
 20
6.9603616838502
 42
-0.074407141649
  0
VERTEX
  8
ArcText1
 10
31.9852003377802
 20
6.7382233031387
 42
-0.1252275157865
  0
VERTEX
  8
ArcText1
 10
32.0449495715249
 20
6.3590041328353
 42
-0.1308306083753
  0
VERTEX
  8
ArcText1
 10
31.9150028218016
 20
6.0200268041186
 42
-0.0811721350505
  0
VERTEX
  8
ArcText1
 10
31.6114681143564
 20
5.7200077538223
 42
-0.0417311222957
  0
VERTEX
  8
ArcText1
 10
31.3413591711607
 20
5.5588999972192
 42
-0.0200166472446
  0
VERTEX
  8
ArcText1
 10
31.054267264801
 20
5.4304758297917
 42
-0.027287322408
  0
VERTEX
  8
ArcText1
 10
30.6944946053141
 20
5.3056136609232
 42
-0.0520730188516
  0
VERTEX
  8
ArcText1
 10
30.3199169157332
 20
5.2369220558753
 42
-0.0592732323467
  0
VERTEX
  8
ArcText1
 10
30.0537807870739
 20
5.2503953297794
 42
-0.081264220665
  0
VERTEX
  8
ArcText1
 10
29.8018964858371
 20
5.3373679745989
 42
-0.0988333086315
  0
VERTEX
  8
ArcText1
 10
29.605593775495
 20
5.5023795442096
 42
-0.074051331334
  0
VERTEX
  8
ArcText1
 10
29.4777541806142
 20
5.7246869820771
 42
-0.1046174723862
  0
VERTEX
  8
ArcText1
 10
29.4129385206492
 20
6.0585282276681
 42
-0.1230503809635
  0
VERTEX
  8
ArcText1
 10
29.5068952767903
 20
6.3853664016747
 42
-0.0740833537627
  0
VERTEX
  8
ArcText1
 10
29.683670982253
 20
6.6054715117662
 42
-0.0601609931443
  0
VERTEX
  8
ArcText1
 10
30.0262694362731
 20
6.8509769713718
 42
-0.0322260720832
  0
SEQEND
  0
POLYLINE
  8
ArcText1
 66
     1
 10
0.0
 20
0.0
 30
0.0
 70
     1
  0
VERTEX
  8
ArcText1
 10
30.5322655924306
 20
6.7218859748652
 42
0.0298698666627
  0
VERTEX
  8
ArcText1
 10
30.1296139771119
 20
6.5340737884676
 42
0.0339540456925
  0
VERTEX
  8
ArcText1
 10
29.9411532122683
 20
6.4139257758196
 42
0.084666292222
  0
VERTEX
  8
ArcText1
 10
29.7834716374354
 20
6.2555289624186
 42
0.1018848151884
  0
VERTEX
  8
ArcText1
 10
29.6997790072789
 20
6.0475646844144
 42
0.139392797476
  0
VERTEX
  8
ArcText1
 10
29.7256513290848
 20
5.8248896377332
 42
0.1411092296746
  0
VERTEX
  8
ArcText1
 10
29.8621894173366
 20
5.6473331367841
 42
0.102659777138
  0
VERTEX
  8
ArcText1
 10
30.067474370929
 20
5.5577390417658
 42
0.0851876114291
  0
VERTEX
  8
ArcText1
 10
30.2906073119863
 20
5.5522899977207
 42
0.0442315649717
  0
VERTEX
  8
ArcText1
 10
30.6155364898433
 20
5.6268805733701
 42
0.0202726986031
  0
VERTEX
  8
ArcText1
 10
30.9290139452309
 20
5.74034726538
 42
0.0301198451876
  0
VERTEX
  8
ArcText1
 10
31.3318081046672
 20
5.9284312523324
 42
0.0344111176092
  0
VERTEX
  8
ArcText1
 10
31.5201923400496
 20
6.0490108609082
 42
0.0862698409776
  0
VERTEX
  8
ArcText1
 10
31.6771308552554
 20
6.2083792585596
 42
0.1046611523255
  0
VERTEX
  8
ArcText1
 10
31.761216106833
 20
6.4171985943169
 42
0.138042616063
  0
VERTEX
  8
ArcText1
 10
31.7342741186353
 20
6.6406935639779
 42
0.2591794742601
  0
VERTEX
  8
ArcText1
 10
31.4243462374913
 20
6.9012500271759
 42
0.0790654132826
  0
VERTEX
  8
ArcText1
 10
31.1938150624406
 20
6.909869478252
 42
0.0470465263133
  0
VERTEX
  8
ArcText1
 10
30.8568171152311
 20
6.8377782687055
 42
0.0225629424616
  0
SEQEND
  0
POLYLINE
  8
ArcText1
 66
     1
 10
0.0
 20
0.0
 30
0.0
 70
     1
  0
VERTEX
  8
ArcText1
 10
30.4915852120558
 20
2.9951235988355
 42
0.0
  0
VERTEX
  8
ArcText1
 10
30.1826581550455
 20
2.9476805444512
 42
0.0
  0
VERTEX
  8
ArcText1
 10
29.9169222030318
 20
4.6780292048148
 42
-0.1005152954144
  0
VERTEX
  8
ArcText1
 10
30.1458943779933
 20
4.6748090522184
 42
-0.0858148563055
  0
VERTEX
  8
ArcText1
 10
30.5264669591167
 20
4.517572074633
 42
-0.028891741573
  0
VERTEX
  8
ArcText1
 10
30.7645906695553
 20
4.3469563056442
 42
-0.0148257287824
  0
VERTEX
  8
ArcText1
 10
30.9876135920124
 20
4.1570262516209
 42
0.014619968443
  0
VERTEX
  8
ArcText1
 10
31.2958984810591
 20
3.8944420818629
 42
0.0146849457396
  0
VERTEX
  8
ArcText1
 10
31.4578346316926
 20
3.7725731218371
 42
0.0314740373696
  0
VERTEX
  8
ArcText1
 10
31.6297609575575
 20
3.6652569304927
 42
0.057968452794
  0
VERTEX
  8
ArcText1
 10
31.8279268738391
 20
3.5877960608535
 42
0.0999793119599
  0
VERTEX
  8
ArcText1
 10
32.0402949918899
 20
3.574767161779
 42
0.2149516292313
  0
VERTEX
  8
ArcText1
 10
32.3406057148624
 20
3.7616292032759
 42
0.1100540597372
  0
VERTEX
  8
ArcText1
 10
32.4172460610578
 20
3.9416366902169
 42
0.0849439554757
  0
VERTEX
  8
ArcText1
 10
32.418174699812
 20
4.1372781649492
 42
0.0849751021403
  0
VERTEX
  8
ArcText1
 10
32.3558918266484
 20
4.3324206759111
 42
0.1134240592765
  0
VERTEX
  8
ArcText1
 10
32.2218483081431
 20
4.4873144055049
 42
0.1171601661418
  0
VERTEX
  8
ArcText1
 10
32.0263910489555
 20
4.5692079331653
 42
0.0792540209862
  0
VERTEX
  8
ArcText1
 10
31.8144711658855
 20
4.569149883868
 42
0.0
  0
VERTEX
  8
ArcText1
 10
31.7976656689034
 20
4.9047159161234
 42
-0.076945720916
  0
VERTEX
  8
ArcText1
 10
32.115118859276
 20
4.8793316949602
 42
-0.1154557188328
  0
VERTEX
  8
ArcText1
 10
32.3993788465633
 20
4.7357447772713
 42
-0.1088254535882
  0
VERTEX
  8
ArcText1
 10
32.5945248172457
 20
4.4797844856216
 42
-0.0728236861905
  0
VERTEX
  8
ArcText1
 10
32.6853417732922
 20
4.1709967018001
 42
-0.0780629387703
  0
VERTEX
  8
ArcText1
 10
32.688376931341
 20
3.8452224234376
 42
-0.1137903759927
  0
VERTEX
  8
ArcText1
 10
32.5680094871312
 20
3.5424852890581
 42
-0.2144370196705
  0
VERTEX
  8
ArcText1
 10
32.0838860718497
 20
3.2433146891523
 42
-0.1014385039373
  0
VERTEX
  8
ArcText1
 10
31.7650864717306
 20
3.2601570339146
 42
-0.0503660190818
  0
VERTEX
  8
ArcText1
 10
31.5821728877289
 20
3.3285872378824
 42
-0.0313631960271
  0
VERTEX
  8
ArcText1
 10
31.4125367044997
 20
3.425353219501
 42
-0.0252065813632
  0
VERTEX
  8
ArcText1
 10
31.1375471302808
 20
3.628875238749
 42
-0.0093240235618
  0
VERTEX
  8
ArcText1
 10
30.8758609428056
 20
3.8492404262101
 42
0.0048084942045
  0
VERTEX
  8
ArcText1
 10
30.6854356750602
 20
4.0135408542975
 42
0.020080468252
  0
VERTEX
  8
ArcText1
 10
30.4884640592286
 20
4.1699332747479
 42
0.0535342484297
  0
VERTEX
  8
ArcText1
 10
30.294408587187
 20
4.2790458762363
 42
0.0
  0
SEQEND
  0
POLYLINE
  8
ArcText1
 66
     1
 10
0.0
 20
0.0
 30
0.0
 70
     1
  0
VERTEX
  8
ArcText1
 10
30.8891559942635
 20
2.5531010203194
 42
0.0
  0
VERTEX
  8
ArcText1
 10
30.9041474510405
 20
2.2253705168625
 42
0.0515331997069
  0
VERTEX
  8
ArcText1
 10
30.6853254374795
 20
2.1796294470851
 42
0.1046340599244
  0
VERTEX
  8
ArcText1
 10
30.4899317653939
 20
2.0710169704449
 42
0.1905403958976
  0
VERTEX
  8
ArcText1
 10
30.3408250559909
 20
1.7539457581808
 42
0.2087298246475
  0
VERTEX
  8
ArcText1
 10
30.4656782880617
 20
1.3549926631082
 42
0.2069555525182
  0
VERTEX
  8
ArcText1
 10
30.8442529517429
 20
1.1624485594684
 42
0.0924885176029
  0
VERTEX
  8
ArcText1
 10
31.0460392447864
 20
1.1797874318934
 42
0.1075949442498
  0
VERTEX
  8
ArcText1
 10
31.2241108762403
 20
1.2762698804383
 42
0.2065121577059
  0
VERTEX
  8
ArcText1
 10
31.4021758484678
 20
1.6343433936471
 42
0.0609979759056
  0
VERTEX
  8
ArcText1
 10
31.3860790556765
 20
1.8660559927053
 42
0.0
  0
VERTEX
  8
ArcText1
 10
31.6673187974629
 20
1.8053020276984
 42
0.0256531468803
  0
VERTEX
  8
ArcText1
 10
31.6591750687754
 20
1.7534202608911
 42
0.1485243483491
  0
VERTEX
  8
ArcText1
 10
31.7347298259755
 20
1.3714533665481
 42
0.1419260669308
  0
VERTEX
  8
ArcText1
 10
31.8678440086774
 20
1.2313338449857
 42
0.110300007964
  0
VERTEX
  8
ArcText1
 10
32.0532832407559
 20
1.1768807622759
 42
0.2112794196113
  0
VERTEX
  8
ArcText1
 10
32.3589541686049
 20
1.2717720976907
 42
0.2014597927281
  0
VERTEX
  8
ArcText1
 10
32.503050985967
 20
1.5729581986454
 42
0.1979833533872
  0
VERTEX
  8
ArcText1
 10
32.4116830934828
 20
1.8982705951858
 42
0.1053231913677
  0
VERTEX
  8
ArcText1
 10
32.2565780016301
 20
2.023196628854
 42
0.0613003167077
  0
VERTEX
  8
ArcText1
 10
32.0694184689641
 20
2.0912805277287
 42
0.0
  0
VERTEX
  8
ArcText1
 10
32.1552176475811
 20
2.4102362885747
 42
-0.0734078910888
  0
VERTEX
  8
ArcText1
 10
32.4232238019175
 20
2.2958406424978
 42
-0.0999502218936
  0
VERTEX
  8
ArcText1
 10
32.6356670497009
 20
2.0963876592867
 42
-0.0984863036608
  0
VERTEX
  8
ArcText1
 10
32.7523662015725
 20
1.839010862618
 42
-0.0798636815276
  0
VERTEX
  8
ArcText1
 10
32.7700530039805
 20
1.5569671385593
 42
-0.1210349146359
  0
VERTEX
  8
ArcText1
 10
32.6418328047399
 20
1.1673520705893
 42
-0.1450349165929
  0
VERTEX
  8
ArcText1
 10
32.3657256740752
 20
0.9121146797828
 42
-0.1397488048776
  0
VERTEX
  8
ArcText1
 10
32.0170959206743
 20
0.8445384662499
 42
-0.1489331386967
  0
VERTEX
  8
ArcText1
 10
31.7137161340668
 20
0.9634376247636
 42
-0.142570513873
  0
VERTEX
  8
ArcText1
 10
31.5141973366628
 20
1.254642160982
 42
-0.0792976154245
  0
VERTEX
  8
ArcText1
 10
31.4169086601014
 20
1.0595044427036
 42
-0.0960551332676
  0
VERTEX
  8
ArcText1
 10
31.2575664896693
 20
0.9106624194956
 42
-0.0946231490311
  0
VERTEX
  8
ArcText1
 10
31.0473018302888
 20
0.827837025693
 42
-0.0698724489935
  0
VERTEX
  8
ArcText1
 10
30.8215241428664
 20
0.8180537321345
 42
-0.2135408124351
  0
VERTEX
  8
ArcText1
 10
30.2567155147782
 20
1.1211118579609
 42
-0.1045208542034
  0
VERTEX
  8
ArcText1
 10
30.0993406105203
 20
1.4318169218252
 42
-0.0873570538071
  0
VERTEX
  8
ArcText1
 10
30.0728066643642
 20
1.7790926739737
 42
-0.0832484445253
  0
VERTEX
  8
ArcText1
 10
30.1480781587033
 20
2.08348669099
 42
-0.1014664795633
  0
VERTEX
  8
ArcText1
 10
30.3300855116566
 20
2.3388194339959
 42
-0.192683657403
  0
SEQEND
  0
ENDSEC
  0
EOF
